  0
SECTION
  2
HEADER
  9
$ACADVER
  1
AC1009
  9
$INSBASE
 10
0.0
 20
0.0
 30
0.0
  9
$EXTMIN
 10
0.0
 20
0.0
 30
0.0
  9
$EXTMAX
 10
647.1126986833352248
 20
438.1126986833352248
 30
0.0
  9
$LIMMIN
 10
0.0
 20
0.0
  9
$LIMMAX
 10
647.1126986833352248
 20
438.1126986833352248
  9
$ORTHOMODE
 70
     0
  9
$REGENMODE
 70
     1
  9
$FILLMODE
 70
     1
  9
$QTEXTMODE
 70
     0
  9
$MIRRTEXT
 70
     0
  9
$DRAGMODE
 70
     2
  9
$LTSCALE
 40
1.0
  9
$OSMODE
 70
     0
  9
$ATTMODE
 70
     1
  9
$TEXTSIZE
 40
0.2
  9
$TRACEWID
 40
0.05
  9
$TEXTSTYLE
  7
STANDARD
  9
$CLAYER
  8
0
  9
$CELTYPE
  6
BYLAYER
  9
$CECOLOR
 62
   256
  9
$DIMSCALE
 40
1.0
  9
$DIMASZ
 40
0.18
  9
$DIMEXO
 40
0.0625
  9
$DIMDLI
 40
0.38
  9
$DIMRND
 40
0.0
  9
$DIMDLE
 40
0.0
  9
$DIMEXE
 40
0.18
  9
$DIMTP
 40
0.0
  9
$DIMTM
 40
0.0
  9
$DIMTXT
 40
0.18
  9
$DIMCEN
 40
0.09
  9
$DIMTSZ
 40
0.0
  9
$DIMTOL
 70
     0
  9
$DIMLIM
 70
     0
  9
$DIMTIH
 70
     1
  9
$DIMTOH
 70
     1
  9
$DIMSE1
 70
     0
  9
$DIMSE2
 70
     0
  9
$DIMTAD
 70
     0
  9
$DIMZIN
 70
     0
  9
$DIMBLK
  1

  9
$DIMASO
 70
     1
  9
$DIMSHO
 70
     1
  9
$DIMPOST
  1

  9
$DIMAPOST
  1

  9
$DIMALT
 70
     0
  9
$DIMALTD
 70
     2
  9
$DIMALTF
 40
25.3999999999999986
  9
$DIMLFAC
 40
1.0
  9
$DIMTOFL
 70
     0
  9
$DIMTVP
 40
0.0
  9
$DIMTIX
 70
     0
  9
$DIMSOXD
 70
     0
  9
$DIMSAH
 70
     0
  9
$DIMBLK1
  1

  9
$DIMBLK2
  1

  9
$DIMSTYLE
  2
STANDARD
  9
$DIMCLRD
 70
     0
  9
$DIMCLRE
 70
     0
  9
$DIMCLRT
 70
     0
  9
$DIMTFAC
 40
1.0
  9
$DIMGAP
 40
0.09
  9
$LUNITS
 70
     2
  9
$LUPREC
 70
     4
  9
$SKETCHINC
 40
0.1
  9
$FILLETRAD
 40
0.0
  9
$AUNITS
 70
     0
  9
$AUPREC
 70
     0
  9
$MENU
  1
.
  9
$ELEVATION
 40
0.0
  9
$PELEVATION
 40
0.0
  9
$THICKNESS
 40
0.0
  9
$LIMCHECK
 70
     0
  9
$BLIPMODE
 70
     0
  9
$CHAMFERA
 40
0.0
  9
$CHAMFERB
 40
0.0
  9
$SKPOLY
 70
     0
  9
$TDCREATE
 40
2460125.4516203701496124
  9
$TDUPDATE
 40
2460125.4516203701496124
  9
$TDINDWG
 40
0.0
  9
$TDUSRTIMER
 40
0.0
  9
$USRTIMER
 70
     1
  9
$ANGBASE
 50
0.0
  9
$ANGDIR
 70
     0
  9
$PDMODE
 70
     0
  9
$PDSIZE
 40
0.0
  9
$PLINEWID
 40
0.0
  9
$COORDS
 70
     0
  9
$SPLFRAME
 70
     0
  9
$SPLINETYPE
 70
     6
  9
$SPLINESEGS
 70
     8
  9
$ATTDIA
 70
     1
  9
$ATTREQ
 70
     1
  9
$HANDLING
 70
     1
  9
$HANDSEED
  5
189
  9
$SURFTAB1
 70
     6
  9
$SURFTAB2
 70
     6
  9
$SURFTYPE
 70
     6
  9
$SURFU
 70
     6
  9
$SURFV
 70
     6
  9
$UCSNAME
  2

  9
$UCSORG
 10
0.0
 20
0.0
 30
0.0
  9
$UCSXDIR
 10
1.0
 20
0.0
 30
0.0
  9
$UCSYDIR
 10
0.0
 20
1.0
 30
0.0
  9
$PUCSNAME
  2

  9
$PUCSORG
 10
0.0
 20
0.0
 30
0.0
  9
$PUCSXDIR
 10
1.0
 20
0.0
 30
0.0
  9
$PUCSYDIR
 10
0.0
 20
1.0
 30
0.0
  9
$USERI1
 70
     0
  9
$USERI2
 70
     0
  9
$USERI3
 70
     0
  9
$USERI4
 70
     0
  9
$USERI5
 70
     0
  9
$USERR1
 40
0.0
  9
$USERR2
 40
0.0
  9
$USERR3
 40
0.0
  9
$USERR4
 40
0.0
  9
$USERR5
 40
0.0
  9
$WORLDVIEW
 70
     1
  9
$SHADEDGE
 70
     3
  9
$SHADEDIF
 70
    70
  9
$TILEMODE
 70
     1
  9
$MAXACTVP
 70
    64
  9
$PLIMCHECK
 70
     0
  9
$PEXTMIN
 10
0.0
 20
0.0
 30
0.0
  9
$PEXTMAX
 10
647.1126986833352248
 20
438.1126986833352248
 30
0.0
  9
$PLIMMIN
 10
0.0
 20
0.0
  9
$PLIMMAX
 10
647.1126986833352248
 20
438.1126986833352248
  9
$UNITMODE
 70
     0
  9
$VISRETAIN
 70
     1
  9
$PLINEGEN
 70
     0
  9
$PSLTSCALE
 70
     1
  0
ENDSEC
  0
SECTION
  2
TABLES
  0
TABLE
  2
VPORT
 70
     1
  0
VPORT
  2
*ACTIVE
 70
     0
 10
0.0
 20
0.0
 11
1.0
 21
1.0
 12
148.4832552790539069
 22
-8.3669133007106353
 13
0.0
 23
0.0
 14
1.0
 24
1.0
 15
0.0
 25
0.0
 16
0.0
 26
0.0
 36
1.0
 17
0.0
 27
0.0
 37
0.0
 40
438.1126986833352248
 41
1.4770462043855599
 42
50.0
 43
0.0
 44
0.0
 50
0.0
 51
0.0
 71
     0
 72
   100
 73
     1
 74
     1
 75
     0
 76
     0
 77
     0
 78
     0
  0
ENDTAB
  0
TABLE
  2
LTYPE
 70
    59
  0
LTYPE
  2
CONTINUOUS
 70
     0
  3
Solid line
 72
    65
 73
     0
 40
0.0
  0
LTYPE
  2
SECTION_VIEW_LINES
 70
     0
  3
Section View Lines
 72
    65
 73
     4
 40
0.8406
 49
0.6614
 49
-0.0827
 49
0.0138
 49
-0.0827
  0
LTYPE
  2
CHAIN
 70
     0
  3
Chain ____ _ ____ _ ____ _ ____ _ ____ _ ____
 72
    65
 73
     4
 40
0.3543
 49
0.2362
 49
-0.0295
 49
0.0591
 49
-0.0295
  0
LTYPE
  2
DASH_DOT
 70
     0
  3
Dash dot _._._._._._._._._._._._._._._.
 72
    65
 73
     4
 40
0.37
 49
0.24
 49
-0.06
 49
0.01
 49
-0.06
  0
LTYPE
  2
DASH_DOUBLE_DOT
 70
     0
  3
Dash Double Dot __ __ . __ __ . __ __ . __ _
 72
    65
 73
     6
 40
0.4398
 49
0.24
 49
-0.06
 49
0.0098
 49
-0.06
 49
0.01
 49
-0.06
  0
LTYPE
  2
DASH_TRIPLE_DOT
 70
     0
  3
Dash Triple-Dot _ . . . _ . . . _ . . . _
 72
    65
 73
     8
 40
0.51
 49
0.24
 49
-0.06
 49
0.01
 49
-0.06
 49
0.01
 49
-0.06
 49
0.01
 49
-0.06
  0
LTYPE
  2
DASHED
 70
     0
  3
Dashed __ __ __ __ __ __ __ __ __ __ __ __ __ _
 72
    65
 73
     2
 40
0.2067
 49
0.1654
 49
-0.0413
  0
LTYPE
  2
DASHED_SPACE
 70
     0
  3
Dashed Space _._._._._._._._._._._._._._._.
 72
    65
 73
     2
 40
0.2067
 49
0.1654
 49
-0.0413
  0
LTYPE
  2
DOTTED
 70
     0
  3
Dotted . . . . . . . . . . . . . . . . . . . . 
 72
    65
 73
     2
 40
0.0482
 49
0.0069
 49
-0.0413
  0
LTYPE
  2
DOUBLE_DASH_CHAIN
 70
     0
  3
Double Dash Chain ___ _ _ ___ _ _ ___ _ _ ___ _
 72
    65
 73
     6
 40
1.2402999999999991
 49
0.6614
 49
-0.0827
 49
0.1654
 49
-0.0827
 49
0.1654
 49
-0.0827
  0
LTYPE
  2
DOUBLE_DASH_DOT
 70
     0
  3
Double Dash Dot __ __ . __ __ . __ __ . __ _
 72
    65
 73
     6
 40
0.67
 49
0.24
 49
-0.06
 49
0.24
 49
-0.06
 49
0.01
 49
-0.06
  0
LTYPE
  2
DOUBLE_DASH_DOUBLE_DOT
 70
     0
  3
Double-dash double-dot _ _ . . _ _ . . _
 72
    65
 73
     8
 40
0.7400000000000001
 49
0.24
 49
-0.06
 49
0.24
 49
-0.06
 49
0.01
 49
-0.06
 49
0.01
 49
-0.06
  0
LTYPE
  2
DOUBLE_DASH_TRIPLE_DOT
 70
     0
  3
Double Dash Triple Dot __ __ . . . __ __ . . .
 72
    65
 73
    10
 40
0.8100000000000001
 49
0.24
 49
-0.06
 49
0.24
 49
-0.06
 49
0.01
 49
-0.06
 49
0.01
 49
-0.06
 49
0.01
 49
-0.06
  0
LTYPE
  2
LONG_DASH_DOTTED
 70
     0
  3
Long-Dash Dot ____ . ____ . ____ . ____ . _
 72
    65
 73
     4
 40
0.3001
 49
0.2362
 49
-0.0295
 49
0.0049
 49
-0.0295
  0
LTYPE
  2
LONG_DASH_DOUBLE_DOT
 70
     0
  3
Long Dash Double Dot ____ . . ____ . . ____ . .
 72
    65
 73
     6
 40
0.3345
 49
0.2362
 49
-0.0295
 49
0.0049
 49
-0.0295
 49
0.0049
 49
-0.0295
  0
LTYPE
  2
LONG_DASH_TRIPLE_DOT
 70
     0
  3
Long Dash Triple Dot ____ ... ____ ... ____
 72
    65
 73
     8
 40
0.75
 49
0.48
 49
-0.06
 49
0.01
 49
-0.06
 49
0.01
 49
-0.06
 49
0.01
 49
-0.06
  0
LTYPE
  2
BORDER
 70
     0
  3
Border __ __ . __ __ . __ __ . __ __ . __ __ .
 72
    65
 73
     6
 40
44.4500000000000028
 49
12.6999999999999993
 49
-6.3499999999999988
 49
12.6999999999999993
 49
-6.3499999999999988
 49
0.0
 49
-6.3499999999999988
  0
LTYPE
  2
BORDER2
 70
     0
  3
Border (.5x) __.__.__.__.__.__.__.__.__.__.__.
 72
    65
 73
     6
 40
22.2250000000000014
 49
6.3499999999999988
 49
-3.1749999999999989
 49
6.3499999999999988
 49
-3.1749999999999989
 49
0.0
 49
-3.1749999999999989
  0
LTYPE
  2
BORDERX2
 70
     0
  3
Border (2x) ____  ____  .  ____  ____  .  ___
 72
    65
 73
     6
 40
88.9000000000000057
 49
25.3999999999999986
 49
-12.6999999999999993
 49
25.3999999999999986
 49
-12.6999999999999993
 49
0.0
 49
-12.6999999999999993
  0
LTYPE
  2
CENTER
 70
     0
  3
Center ____ _ ____ _ ____ _ ____ _ ____ _ ____
 72
    65
 73
     4
 40
50.7999999999999972
 49
31.75
 49
-6.3499999999999988
 49
6.3499999999999988
 49
-6.3499999999999988
  0
LTYPE
  2
CENTER2
 70
     0
  3
Center (.5x) ___ _ ___ _ ___ _ ___ _ ___ _ ___
 72
    65
 73
     4
 40
28.5749999999999993
 49
19.0500000000000007
 49
-3.1749999999999989
 49
3.1749999999999989
 49
-3.1749999999999989
  0
LTYPE
  2
CENTERX2
 70
     0
  3
Center (2x) ________  __  ________  __  _____
 72
    65
 73
     4
 40
101.5999999999999943
 49
63.5
 49
-12.6999999999999993
 49
12.6999999999999993
 49
-12.6999999999999993
  0
LTYPE
  2
DASHDOT2
 70
     0
  3
Dash dot (.5x) _._._._._._._._._._._._._._._.
 72
    65
 73
     4
 40
12.6999999999999993
 49
6.3499999999999988
 49
-3.1749999999999989
 49
0.0
 49
-3.1749999999999989
  0
LTYPE
  2
DASHDOTX2
 70
     0
  3
Dash dot (2x) ____  .  ____  .  ____  .  ___
 72
    65
 73
     4
 40
50.7999999999999972
 49
25.3999999999999986
 49
-12.6999999999999993
 49
0.0
 49
-12.6999999999999993
  0
LTYPE
  2
DASHED2
 70
     0
  3
Dashed (.5x) _ _ _ _ _ _ _ _ _ _ _ _ _ _ _ _ _
 72
    65
 73
     2
 40
9.5249999999999986
 49
6.3499999999999988
 49
-3.1749999999999989
  0
LTYPE
  2
DASHEDX2
 70
     0
  3
Dashed (2x) ____  ____  ____  ____  ____  ___
 72
    65
 73
     2
 40
38.1000000000000014
 49
25.3999999999999986
 49
-12.6999999999999993
  0
LTYPE
  2
DIVIDE
 70
     0
  3
Divide ____ . . ____ . . ____ . . ____ . . ____
 72
    65
 73
     6
 40
31.75
 49
12.6999999999999993
 49
-6.3499999999999988
 49
0.0
 49
-6.3499999999999988
 49
0.0
 49
-6.3499999999999988
  0
LTYPE
  2
DIVIDE2
 70
     0
  3
Divide (.5x) __..__..__..__..__..__..__..__.._
 72
    65
 73
     6
 40
15.875
 49
6.3499999999999988
 49
-3.1749999999999989
 49
0.0
 49
-3.1749999999999989
 49
0.0
 49
-3.1749999999999989
  0
LTYPE
  2
DIVIDEX2
 70
     0
  3
Divide (2x) ________  .  .  ________  .  .  _
 72
    65
 73
     6
 40
63.4999999999999929
 49
25.3999999999999986
 49
-12.6999999999999993
 49
0.0
 49
-12.6999999999999993
 49
0.0
 49
-12.6999999999999993
  0
LTYPE
  2
DOT
 70
     0
  3
Dot . . . . . . . . . . . . . . . . . . . . . .
 72
    65
 73
     2
 40
6.3499999999999988
 49
0.0
 49
-6.3499999999999988
  0
LTYPE
  2
DOT2
 70
     0
  3
Dot (.5x) .....................................
 72
    65
 73
     2
 40
3.1749999999999989
 49
0.0
 49
-3.1749999999999989
  0
LTYPE
  2
DOTX2
 70
     0
  3
Dot (2x) .  .  .  .  .  .  .  .  .  .  .  .  . 
 72
    65
 73
     2
 40
12.6999999999999993
 49
0.0
 49
-12.6999999999999993
  0
LTYPE
  2
HIDDEN
 70
     0
  3
Hidden __ __ __ __ __ __ __ __ __ __ __ __ __ _
 72
    65
 73
     2
 40
9.5249999999999986
 49
6.3499999999999988
 49
-3.1749999999999989
  0
LTYPE
  2
HIDDEN2
 70
     0
  3
Hidden (.5x) _ _ _ _ _ _ _ _ _ _ _ _ _ _ _ _ _
 72
    65
 73
     2
 40
4.7624999999999993
 49
3.1749999999999989
 49
-1.587499999999999
  0
LTYPE
  2
HIDDENX2
 70
     0
  3
Hidden (2x) ____ ____ ____ ____ ____ ____ ____
 72
    65
 73
     2
 40
19.0500000000000007
 49
12.6999999999999993
 49
-6.3499999999999988
  0
LTYPE
  2
PHANTOM
 70
     0
  3
Phantom ______  __  __  ______  __  __  ______
 72
    65
 73
     6
 40
63.5
 49
31.75
 49
-6.3499999999999988
 49
6.3499999999999988
 49
-6.3499999999999988
 49
6.3499999999999988
 49
-6.3499999999999988
  0
LTYPE
  2
PHANTOM2
 70
     0
  3
Phantom (.5x) ___ _ _ ___ _ _ ___ _ _ ___ _ _
 72
    65
 73
     6
 40
31.75
 49
15.875
 49
-3.1749999999999989
 49
3.1749999999999989
 49
-3.1749999999999989
 49
3.1749999999999989
 49
-3.1749999999999989
  0
LTYPE
  2
PHANTOMX2
 70
     0
  3
Phantom (2x) ____________    ____    ____   _
 72
    65
 73
     6
 40
127.0
 49
63.5
 49
-12.6999999999999993
 49
12.6999999999999993
 49
-12.6999999999999993
 49
12.6999999999999993
 49
-12.6999999999999993
  0
LTYPE
  2
ACAD_ISO02W100
 70
     0
  3
ISO dash __ __ __ __ __ __ __ __ __ __ __ __ __
 72
    65
 73
     2
 40
15.0
 49
12.0
 49
-3.0
  0
LTYPE
  2
ACAD_ISO03W100
 70
     0
  3
ISO dash space __    __    __    __    __    __
 72
    65
 73
     2
 40
30.0
 49
12.0
 49
-18.0
  0
LTYPE
  2
ACAD_ISO04W100
 70
     0
  3
ISO long-dash dot ____ . ____ . ____ . ____ . _
 72
    65
 73
     4
 40
30.0
 49
24.0
 49
-3.0
 49
0.0
 49
-3.0
  0
LTYPE
  2
ACAD_ISO05W100
 70
     0
  3
ISO long-dash double-dot ____ .. ____ .. ____ .
 72
    65
 73
     6
 40
33.0
 49
24.0
 49
-3.0
 49
0.0
 49
-3.0
 49
0.0
 49
-3.0
  0
LTYPE
  2
ACAD_ISO06W100
 70
     0
  3
ISO long-dash triple-dot ____ ... ____ ... ____
 72
    65
 73
     8
 40
36.0
 49
24.0
 49
-3.0
 49
0.0
 49
-3.0
 49
0.0
 49
-3.0
 49
0.0
 49
-3.0
  0
LTYPE
  2
ACAD_ISO07W100
 70
     0
  3
ISO dot . . . . . . . . . . . . . . . . . . . .
 72
    65
 73
     2
 40
3.0
 49
0.0
 49
-3.0
  0
LTYPE
  2
ACAD_ISO08W100
 70
     0
  3
ISO long-dash short-dash ____ __ ____ __ ____ _
 72
    65
 73
     4
 40
36.0
 49
24.0
 49
-3.0
 49
6.0
 49
-3.0
  0
LTYPE
  2
ACAD_ISO09W100
 70
     0
  3
ISO long-dash double-short-dash ____ __ __ ____
 72
    65
 73
     6
 40
45.0
 49
24.0
 49
-3.0
 49
6.0
 49
-3.0
 49
6.0
 49
-3.0
  0
LTYPE
  2
ACAD_ISO10W100
 70
     0
  3
ISO dash dot __ . __ . __ . __ . __ . __ . __ .
 72
    65
 73
     4
 40
18.0
 49
12.0
 49
-3.0
 49
0.0
 49
-3.0
  0
LTYPE
  2
ACAD_ISO11W100
 70
     0
  3
ISO double-dash dot __ __ . __ __ . __ __ . __ 
 72
    65
 73
     6
 40
33.0
 49
12.0
 49
-3.0
 49
12.0
 49
-3.0
 49
0.0
 49
-3.0
  0
LTYPE
  2
ACAD_ISO12W100
 70
     0
  3
ISO dash double-dot __ . . __ . . __ . . __ . .
 72
    65
 73
     6
 40
21.0
 49
12.0
 49
-3.0
 49
0.0
 49
-3.0
 49
0.0
 49
-3.0
  0
LTYPE
  2
ACAD_ISO13W100
 70
     0
  3
ISO double-dash double-dot __ __ . . __ __ . . 
 72
    65
 73
     8
 40
36.0
 49
12.0
 49
-3.0
 49
12.0
 49
-3.0
 49
0.0
 49
-3.0
 49
0.0
 49
-3.0
  0
LTYPE
  2
ACAD_ISO14W100
 70
     0
  3
ISO dash triple-dot __ . . . __ . . . __ . . . 
 72
    65
 73
     8
 40
24.0
 49
12.0
 49
-3.0
 49
0.0
 49
-3.0
 49
0.0
 49
-3.0
 49
0.0
 49
-3.0
  0
LTYPE
  2
ACAD_ISO15W100
 70
     0
  3
ISO double-dash triple-dot __ __ . . . __ __ . 
 72
    65
 73
    10
 40
39.0
 49
12.0
 49
-3.0
 49
12.0
 49
-3.0
 49
0.0
 49
-3.0
 49
0.0
 49
-3.0
 49
0.0
 49
-3.0
  0
LTYPE
  2
FENCELINE1
 70
     0
  3
Fenceline circle ----0-----0----0-----0----0---
 72
    65
 73
     4
 40
36.8299999999999983
 49
6.3499999999999988
 49
-2.54
 49
-2.54
 49
25.3999999999999986
  0
LTYPE
  2
FENCELINE2
 70
     0
  3
Fenceline square ----[]-----[]----[]-----[]----
 72
    65
 73
     4
 40
36.8299999999999983
 49
6.3499999999999988
 49
-2.54
 49
-2.54
 49
25.3999999999999986
  0
LTYPE
  2
TRACKS
 70
     0
  3
Tracks -|-|-|-|-|-|-|-|-|-|-|-|-|-|-|-|-|-|-|-|
 72
    65
 73
     2
 40
7.6200000000000001
 49
3.8100000000000001
 49
3.8100000000000001
  0
LTYPE
  2
BATTING
 70
     0
  3
Batting SSSSSSSSSSSSSSSSSSSSSSSSSSSSSSSSSSSSSSS
 72
    65
 73
     4
 40
10.1625399999999999
 49
0.00254
 49
-2.54
 49
-5.0800000000000001
 49
-2.54
  0
LTYPE
  2
HOT_WATER_SUPPLY
 70
     0
  3
Hot water supply ---- HW ---- HW ---- HW ----
 72
    65
 73
     3
 40
22.8599999999999994
 49
12.6999999999999993
 49
-5.0800000000000001
 49
-5.0800000000000001
  0
LTYPE
  2
GAS_LINE
 70
     0
  3
Gas line ----GAS----GAS----GAS----GAS----GAS---
 72
    65
 73
     3
 40
24.129999999999999
 49
12.6999999999999993
 49
-5.0800000000000001
 49
-6.3499999999999988
  0
LTYPE
  2
ZIGZAG
 70
     0
  3
Zig zag /\/\/\/\/\/\/\/\/\/\/\/\/\/\/\/\/\/\/\/
 72
    65
 73
     4
 40
20.32254
 49
0.00254
 49
-5.0800000000000001
 49
-10.1600000000000001
 49
-5.0800000000000001
  0
ENDTAB
  0
TABLE
  2
LAYER
 70
     1
  0
LAYER
  2
0
 70
     0
 62
     7
  6
CONTINUOUS
  0
ENDTAB
  0
TABLE
  2
STYLE
 70
     6
  0
STYLE
  2
STANDARD
 70
     0
 40
0.0
 41
1.0
 50
0.0
 71
     0
 42
0.2
  3
txt
  4

  0
STYLE
  2
ANNOTATIVE
 70
     0
 40
0.0
 41
1.0
 50
0.0
 71
     0
 42
0.2
  3
txt
  4

  0
STYLE
  2

 70
     1
 40
0.0
 41
1.0
 50
0.0
 71
     0
 42
0.2
  3
ltypeshp.shx
  4

  0
STYLE
  2
NOTE_TEXT__DIN__-_3DA
 70
     0
 40
0.0
 41
1.0
 50
0.0
 71
     0
 42
0.2
  3
txt.shx
  4
bigfont.shx
  0
STYLE
  2
TEXT_NáčRTU__ISO__-_3DA
 70
     0
 40
0.0
 41
1.0
 50
0.0
 71
     0
 42
0.2
  3
txt.shx
  4
bigfont.shx
  0
STYLE
  2
TEXT_POZNáMKY__DIN__-_3DA
 70
     0
 40
0.0
 41
1.0
 50
0.0
 71
     0
 42
0.2
  3
txt.shx
  4
bigfont.shx
  0
ENDTAB
  0
TABLE
  2
VIEW
 70
     0
  0
ENDTAB
  0
TABLE
  2
UCS
 70
     0
  0
ENDTAB
  0
TABLE
  2
APPID
 70
     3
  0
APPID
  2
ACAD
 70
     0
  0
APPID
  2
ACADANNOTATIVE
 70
     0
  0
APPID
  2
ACAD_MLEADERVER
 70
     0
  0
ENDTAB
  0
TABLE
  2
DIMSTYLE
 70
     2
  0
DIMSTYLE
  2
STANDARD
 70
     0
  3

  4

  5

  6

  7

 40
1.0
 41
0.18
 42
0.0625
 43
0.38
 44
0.18
 45
0.0
 46
0.0
 47
0.0
 48
0.0
140
0.18
141
0.09
142
0.0
143
25.3999999999999986
144
1.0
145
0.0
146
1.0
147
0.09
 71
     0
 72
     0
 73
     1
 74
     1
 75
     0
 76
     0
 77
     0
 78
     0
170
     0
171
     2
172
     0
173
     0
174
     0
175
     0
176
     0
177
     0
178
     0
  0
DIMSTYLE
  2
ANNOTATIVE
 70
     0
  3

  4

  5

  6

  7

 40
1.0
 41
0.18
 42
0.0625
 43
0.38
 44
0.18
 45
0.0
 46
0.0
 47
0.0
 48
0.0
140
0.18
141
0.09
142
0.0
143
25.3999999999999986
144
1.0
145
0.0
146
1.0
147
0.09
 71
     0
 72
     0
 73
     1
 74
     1
 75
     0
 76
     0
 77
     0
 78
     0
170
     0
171
     2
172
     0
173
     0
174
     0
175
     0
176
     0
177
     0
178
     0
  0
ENDTAB
  0
ENDSEC
  0
SECTION
  2
BLOCKS
  0
BLOCK
  8
0
  2
$MODEL_SPACE
 70
     0
 10
0.0
 20
0.0
 30
0.0
  3
$MODEL_SPACE
  1

  0
ENDBLK
  5
72
  8
0
  0
BLOCK
 67
     1
  8
0
  2
$PAPER_SPACE
 70
     0
 10
0.0
 20
0.0
 30
0.0
  3
$PAPER_SPACE
  1

  0
ENDBLK
  5
6E
 67
     1
  8
0
  0
ENDSEC
  0
SECTION
  2
ENTITIES
  0
POLYLINE
  5
B7
  8
0
 66
     1
 10
0.0
 20
0.0
 30
0.0
 70
     1
  0
VERTEX
  5
B8
  8
0
 10
-10.26674472094812
 20
-159.4669133007103881
 30
0.0
 42
-0.4142135623730951
  0
VERTEX
  5
B9
  8
0
 10
-11.26674472094812
 20
-160.4669133007103881
 30
0.0
  0
VERTEX
  5
BB
  8
0
 10
-44.2667447209480898
 20
-160.4669133007103881
 30
0.0
 42
-0.4142135623730951
  0
VERTEX
  5
BC
  8
0
 10
-45.2667447209480329
 20
-159.4669133007103881
 30
0.0
  0
VERTEX
  5
BD
  8
0
 10
-45.26674472094804
 20
-139.4669133007105017
 30
0.0
 42
-0.4142135623730951
  0
VERTEX
  5
BE
  8
0
 10
-44.2667447209480898
 20
-138.4669133007105017
 30
0.0
  0
VERTEX
  5
BF
  8
0
 10
-11.2667447209480507
 20
-138.4669133007105017
 30
0.0
 42
-0.4142135623730951
  0
VERTEX
  5
C0
  8
0
 10
-10.2667447209481093
 20
-139.4669133007105017
 30
0.0
  0
SEQEND
  5
BA
  8
0
  0
POLYLINE
  5
C2
  8
0
 66
     1
 10
0.0
 20
0.0
 30
0.0
 70
     1
  0
VERTEX
  5
C3
  8
0
 10
-65.0167447205980409
 20
104.1330866992878015
 30
0.0
 42
-0.4142135623731054
  0
VERTEX
  5
C4
  8
0
 10
-67.0167447205980125
 20
106.1330866992878015
 30
0.0
  0
VERTEX
  5
C6
  8
0
 10
-67.0167447205980551
 20
134.1330866992877873
 30
0.0
 42
-0.4142135623730898
  0
VERTEX
  5
C7
  8
0
 10
-65.0167447205980409
 20
136.1330866992877873
 30
0.0
  0
VERTEX
  5
C8
  8
0
 10
-1.0167447205981259
 20
136.133086699287702
 30
0.0
 42
-0.4142135623730951
  0
VERTEX
  5
C9
  8
0
 10
0.9832552794018623
 20
134.1330866992877873
 30
0.0
  0
VERTEX
  5
CA
  8
0
 10
0.9832552794019022
 20
106.1330866992878015
 30
0.0
 42
-0.4142135623730925
  0
VERTEX
  5
CB
  8
0
 10
-1.016744720598054
 20
104.1330866992878015
 30
0.0
  0
SEQEND
  5
C5
  8
0
  0
POLYLINE
  5
CC
  8
0
 66
     1
 10
0.0
 20
0.0
 30
0.0
 70
     1
  0
VERTEX
  5
CD
  8
0
 10
-93.6167447209475512
 20
-132.7169133007097912
 30
0.0
 42
-0.4142135623731003
  0
VERTEX
  5
CE
  8
0
 10
-95.616744720947537
 20
-130.7169133007097912
 30
0.0
  0
VERTEX
  5
D0
  8
0
 10
-95.6167447209474943
 20
-92.7169133007098623
 30
0.0
 42
-0.4142135623731003
  0
VERTEX
  5
D1
  8
0
 10
-93.6167447209475512
 20
-90.7169133007098338
 30
0.0
  0
VERTEX
  5
D2
  8
0
 10
-38.6167447209456967
 20
-90.7169133007099049
 30
0.0
 42
-0.4142135623730847
  0
VERTEX
  5
D3
  8
0
 10
-36.6167447209456611
 20
-92.7169133007098623
 30
0.0
  0
VERTEX
  5
D4
  8
0
 10
-36.6167447209455972
 20
-130.7169133007097912
 30
0.0
 42
-0.4142135623731003
  0
VERTEX
  5
D5
  8
0
 10
-38.6167447209456327
 20
-132.7169133007097912
 30
0.0
  0
SEQEND
  5
CF
  8
0
  0
POLYLINE
  5
D6
  8
0
 66
     1
 10
0.0
 20
0.0
 30
0.0
 70
     1
  0
VERTEX
  5
D7
  8
0
 10
5.7461134378876011
 20
112.4204838180282024
 30
0.0
 42
-0.4142135623730847
  0
VERTEX
  5
D8
  8
0
 10
3.7461134378876082
 20
114.420483818028103
 30
0.0
  0
VERTEX
  5
DA
  8
0
 10
3.7461134378875718
 20
140.4204838180280035
 30
0.0
 42
-0.4142135623730898
  0
VERTEX
  5
DB
  8
0
 10
5.7461134378876011
 20
142.4204838180278898
 30
0.0
  0
VERTEX
  5
DC
  8
0
 10
144.2461134378918928
 20
142.4204838180280035
 30
0.0
 42
-0.4142135623730951
  0
VERTEX
  5
DD
  8
0
 10
146.2461134378918928
 20
140.4204838180280035
 30
0.0
  0
VERTEX
  5
DE
  8
0
 10
146.2461134378918928
 20
114.4204838180282024
 30
0.0
 42
-0.4142135623730951
  0
VERTEX
  5
DF
  8
0
 10
144.2461134378918928
 20
112.4204838180282024
 30
0.0
  0
SEQEND
  5
D9
  8
0
  0
POLYLINE
  5
E0
  8
0
 66
     1
 10
0.0
 20
0.0
 30
0.0
 70
     1
  0
VERTEX
  5
E1
  8
0
 10
334.759514998524196
 20
106.6330866992892936
 30
0.0
 42
-0.2004909185829392
  0
VERTEX
  5
E2
  8
0
 10
348.9875265265856115
 20
100.6889795499780007
 30
0.0
  0
VERTEX
  5
E4
  8
0
 10
362.7108936751566262
 20
86.7979343581233991
 30
0.0
 42
-0.1973347691804035
  0
VERTEX
  5
E5
  8
0
 10
368.4832552790538784
 20
72.7416683754759106
 30
0.0
  0
VERTEX
  5
E6
  8
0
 10
368.4832552790539921
 20
-98.8446410245598059
 30
0.0
 42
-0.185126510897458
  0
VERTEX
  5
E7
  8
0
 10
363.3570507628637074
 20
-112.215281749942605
 30
0.0
  0
VERTEX
  5
E8
  8
0
 10
350.3030709994911831
 20
-126.7371808941344966
 30
0.0
 42
-0.2127713385115739
  0
VERTEX
  5
E9
  8
0
 10
335.4289023837225727
 20
-133.3669133007105927
 30
0.0
  0
VERTEX
  5
EA
  8
0
 10
5.4573954287103268
 20
-133.3669133007105927
 30
0.0
 42
-0.198912367379656
  0
VERTEX
  5
EB
  8
0
 10
-1.613672383155079
 20
-130.4379811125760966
 30
0.0
  0
VERTEX
  5
EC
  8
0
 10
-24.7878125328135503
 20
-107.2638409629175982
 30
0.0
 42
-0.198912367379658
  0
VERTEX
  5
ED
  8
0
 10
-27.7167447209481601
 20
-100.1927731510521937
 30
0.0
  0
VERTEX
  5
EE
  8
0
 10
-27.7167447209481601
 20
-80.792493506283023
 30
0.0
 42
0.3491564832495
  0
VERTEX
  5
EF
  8
0
 10
-31.5909620641494584
 20
-75.9208804869996641
 30
0.0
  0
VERTEX
  5
F0
  8
0
 10
-67.6425273777446137
 20
-67.5897123872683636
 30
0.0
 42
-0.3491564832495049
  0
VERTEX
  5
F1
  8
0
 10
-71.5167447209460505
 20
-62.7180993679849692
 30
0.0
  0
VERTEX
  5
F2
  8
0
 10
-71.5167447209460505
 20
56.4500788666426132
 30
0.0
 42
-0.3725998142789613
  0
VERTEX
  5
F3
  8
0
 10
-67.2349387143239454
 20
61.3982297725746733
 30
0.0
  0
VERTEX
  5
F4
  8
0
 10
28.2046309760188016
 20
75.25070254174544
 30
0.0
 42
0.3725998142789608
  0
VERTEX
  5
F5
  8
0
 10
36.7682429892630225
 20
85.1470043536094749
 30
0.0
  0
VERTEX
  5
F6
  8
0
 10
36.768242989263058
 20
101.6330866992892936
 30
0.0
 42
-0.414213562373093
  0
VERTEX
  5
F7
  8
0
 10
41.768242989263122
 20
106.6330866992892936
 30
0.0
  0
SEQEND
  5
E3
  8
0
  0
POLYLINE
  5
F8
  8
0
 66
     1
 10
0.0
 20
0.0
 30
0.0
 70
     1
  0
VERTEX
  5
F9
  8
0
 10
438.4832552790538784
 20
166.6330866992894073
 30
0.0
 42
0.4142135623730951
  0
VERTEX
  5
FA
  8
0
 10
418.4832552790538784
 20
186.6330866992894073
 30
0.0
  0
VERTEX
  5
FC
  8
0
 10
-121.5167447209459937
 20
186.6330866992892084
 30
0.0
 42
0.4142135623730956
  0
VERTEX
  5
FD
  8
0
 10
-141.5167447209460931
 20
166.6330866992892084
 30
0.0
  0
VERTEX
  5
FE
  8
0
 10
-141.5167447209458942
 20
-183.3669133007107064
 30
0.0
 42
0.4142135623730951
  0
VERTEX
  5
FF
  8
0
 10
-121.5167447209459937
 20
-203.3669133007107064
 30
0.0
  0
VERTEX
  5
100
  8
0
 10
418.4832552790538216
 20
-203.3669133007107064
 30
0.0
 42
0.4142135623730951
  0
VERTEX
  5
101
  8
0
 10
438.4832552790538216
 20
-183.3669133007107064
 30
0.0
  0
SEQEND
  5
FB
  8
0
  0
CIRCLE
  5
102
  8
0
 10
375.4832552790538216
 20
176.933086699289305
 30
0.0
 40
3.0
  0
CIRCLE
  5
103
  8
0
 10
-61.5167447209460505
 20
-169.8669133007105927
 30
0.0
 40
3.0
  0
CIRCLE
  5
104
  8
0
 10
-78.5167447209459937
 20
176.9330866992891913
 30
0.0
 40
3.0
  0
CIRCLE
  5
105
  8
0
 10
358.4832552745459111
 20
-169.8669133007105927
 30
0.0
 40
3.0
  0
CIRCLE
  5
106
  8
0
 10
203.4832552790539069
 20
141.6330866992892936
 30
0.0
 40
9.9999999999999982
  0
CIRCLE
  5
107
  8
0
 10
336.3140598061377773
 20
-143.3899917898413037
 30
0.0
 40
2.0670000000000002
  0
CIRCLE
  5
108
  8
0
 10
9.7911919185661134
 20
171.6330866992855135
 30
0.0
 40
2.0670000000000002
  0
CIRCLE
  5
109
  8
0
 10
336.3140598061377773
 20
-188.3899917898393142
 30
0.0
 40
2.0670000000000002
  0
CIRCLE
  5
10A
  8
0
 10
9.7911919185659002
 20
99.6330866992884836
 30
0.0
 40
2.0670000000000002
  0
CIRCLE
  5
10B
  8
0
 10
10.3140598061411701
 20
-188.3899917898397121
 30
0.0
 40
2.0670000000000002
  0
CIRCLE
  5
10C
  8
0
 10
335.7911919185631859
 20
114.7820906939611945
 30
0.0
 40
2.0670000000000002
  0
CIRCLE
  5
10D
  8
0
 10
335.7911919185632996
 20
171.6330866992859967
 30
0.0
 40
2.0670000000000002
  0
CIRCLE
  5
10E
  8
0
 10
10.3140598061413797
 20
-143.3899917898417016
 30
0.0
 40
2.0670000000000002
  0
CIRCLE
  5
10F
  8
0
 10
-125.2922640651211026
 20
-187.1428777822142138
 30
0.0
 40
2.75
  0
CIRCLE
  5
110
  8
0
 10
422.2592197605575279
 20
170.4090511807928863
 30
0.0
 40
2.75
  0
CIRCLE
  5
111
  8
0
 10
416.8696807169139902
 20
-167.6218097165574079
 30
0.0
 40
2.75
  0
CIRCLE
  5
112
  8
0
 10
384.9313863089961956
 20
-172.6803386012757073
 30
0.0
 40
2.75
  0
CIRCLE
  5
113
  8
0
 10
416.8696807169138765
 20
150.8879831151361941
 30
0.0
 40
2.75
  0
CIRCLE
  5
114
  8
0
 10
388.0577290928252978
 20
136.207560513060713
 30
0.0
 40
2.75
  0
CIRCLE
  5
115
  8
0
 10
402.738151694900921
 20
165.0195121371492917
 30
0.0
 40
2.75
  0
CIRCLE
  5
116
  8
0
 10
-91.0907733973889435
 20
136.207560513060713
 30
0.0
 40
2.75
  0
CIRCLE
  5
117
  8
0
 10
-105.7711959994643962
 20
165.0195121371492917
 30
0.0
 40
2.75
  0
CIRCLE
  5
118
  8
0
 10
-105.7711959994643962
 20
-181.7533387385705907
 30
0.0
 40
2.75
  0
CIRCLE
  5
119
  8
0
 10
-110.8297248841827951
 20
-149.8150443306529098
 30
0.0
 40
2.75
  0
CIRCLE
  5
11A
  8
0
 10
-87.9644306135599408
 20
-172.6803386012757926
 30
0.0
 40
2.75
  0
CIRCLE
  5
11B
  8
0
 10
-91.0907733973889435
 20
-152.9413871144820121
 30
0.0
 40
2.75
  0
CIRCLE
  5
11C
  8
0
 10
-119.9027250214775933
 20
-167.6218097165574932
 30
0.0
 40
2.75
  0
CIRCLE
  5
11D
  8
0
 10
-119.9027250214775933
 20
150.8879831151361941
 30
0.0
 40
2.75
  0
CIRCLE
  5
11E
  8
0
 10
-87.9644306135598555
 20
155.9465119998544935
 30
0.0
 40
2.75
  0
CIRCLE
  5
11F
  8
0
 10
-110.8297248841827951
 20
133.081217729231696
 30
0.0
 40
2.75
  0
CIRCLE
  5
120
  8
0
 10
384.9313863089961956
 20
155.9465119998544935
 30
0.0
 40
2.75
  0
CIRCLE
  5
121
  8
0
 10
407.7966805796190783
 20
133.0812177292316107
 30
0.0
 40
2.75
  0
CIRCLE
  5
122
  8
0
 10
388.0577290928251841
 20
-152.9413871144818984
 30
0.0
 40
2.75
  0
CIRCLE
  5
123
  8
0
 10
402.738151694900921
 20
-181.7533387385705907
 30
0.0
 40
2.75
  0
CIRCLE
  5
124
  8
0
 10
407.7966805796190783
 20
-149.8150443306529098
 30
0.0
 40
2.75
  0
CIRCLE
  5
125
  8
0
 10
-125.2922640651211026
 20
170.409051180792801
 30
0.0
 40
2.75
  0
CIRCLE
  5
126
  8
0
 10
422.2592197605575848
 20
-187.1428777822141001
 30
0.0
 40
2.75
  0
CIRCLE
  5
127
  8
0
 10
-61.5167447209459723
 20
-150.3669133007105074
 30
0.0
 40
14.5
  0
CIRCLE
  5
128
  8
0
 10
-61.5167447209461216
 20
153.6330866992892936
 30
0.0
 40
14.5
  0
CIRCLE
  5
129
  8
0
 10
406.4832552790538784
 20
1.6330866992893069
 30
0.0
 40
2.75
  0
CIRCLE
  5
12A
  8
0
 10
148.4832552790539921
 20
154.6330866992892936
 30
0.0
 40
2.75
  0
CIRCLE
  5
12B
  8
0
 10
-109.5167447209460931
 20
1.6330866992893069
 30
0.0
 40
2.75
  0
CIRCLE
  5
12C
  8
0
 10
148.4832552790539921
 20
-151.3669133007105927
 30
0.0
 40
2.75
  0
CIRCLE
  5
12D
  8
0
 10
358.4832552790538216
 20
153.6330866992892936
 30
0.0
 40
14.5
  0
CIRCLE
  5
12E
  8
0
 10
358.4832552790538216
 20
-150.3669133007103937
 30
0.0
 40
14.5
  0
ENDSEC
  0
EOF
